  0
SECTION
  2
HEADER
  9
$ACADVER
  1
AC1015
  9
$ACADMAINTVER
 70
     6
  9
$DWGCODEPAGE
  3
ANSI_1254
  9
$INSBASE
 10
0.0
 20
0.0
 30
0.0
  9
$EXTMIN
 10
0.0
 20
0.0
 30
0.0
  9
$EXTMAX
 10
279.4
 20
215.9
 30
0.0
  9
$LIMMIN
 10
0.0
 20
0.0
  9
$LIMMAX
 10
279.4
 20
215.9
  9
$ORTHOMODE
 70
     0
  9
$REGENMODE
 70
     1
  9
$FILLMODE
 70
     1
  9
$QTEXTMODE
 70
     0
  9
$MIRRTEXT
 70
     1
  9
$LTSCALE
 40
1.0
  9
$ATTMODE
 70
     1
  9
$TEXTSIZE
 40
3.5
  9
$TRACEWID
 40
1.0
  9
$TEXTSTYLE
  7
Standard
  9
$CLAYER
  8
0
  9
$CELTYPE
  6
ByLayer
  9
$CECOLOR
 62
   256
  9
$CELTSCALE
 40
1.0
  9
$DISPSILH
 70
     0
  9
$DIMSCALE
 40
1.0
  9
$DIMASZ
 40
3.5
  9
$DIMEXO
 40
1.0
  9
$DIMDLI
 40
3.75
  9
$DIMRND
 40
0.0
  9
$DIMDLE
 40
0.0
  9
$DIMEXE
 40
1.0
  9
$DIMTP
 40
0.0
  9
$DIMTM
 40
0.0
  9
$DIMTXT
 40
3.5
  9
$DIMCEN
 40
2.5
  9
$DIMTSZ
 40
0.0
  9
$DIMTOL
 70
     0
  9
$DIMLIM
 70
     0
  9
$DIMTIH
 70
     1
  9
$DIMTOH
 70
     1
  9
$DIMSE1
 70
     0
  9
$DIMSE2
 70
     0
  9
$DIMTAD
 70
     1
  9
$DIMZIN
 70
     0
  9
$DIMBLK
  1

  9
$DIMASO
 70
     1
  9
$DIMSHO
 70
     1
  9
$DIMPOST
  1

  9
$DIMAPOST
  1

  9
$DIMALT
 70
     0
  9
$DIMALTD
 70
     3
  9
$DIMALTF
 40
0.0393700787
  9
$DIMLFAC
 40
1.0
  9
$DIMTOFL
 70
     1
  9
$DIMTVP
 40
0.0
  9
$DIMTIX
 70
     0
  9
$DIMSOXD
 70
     0
  9
$DIMSAH
 70
     0
  9
$DIMBLK1
  1

  9
$DIMBLK2
  1

  9
$DIMSTYLE
  2
ISO-25
  9
$DIMCLRD
 70
     0
  9
$DIMCLRE
 70
     0
  9
$DIMCLRT
 70
     0
  9
$DIMTFAC
 40
1.0
  9
$DIMGAP
 40
1.524
  9
$DIMJUST
 70
     0
  9
$DIMSD1
 70
     0
  9
$DIMSD2
 70
     0
  9
$DIMTOLJ
 70
     0
  9
$DIMTZIN
 70
     0
  9
$DIMALTZ
 70
     0
  9
$DIMALTTZ
 70
     0
  9
$DIMUPT
 70
     0
  9
$DIMDEC
 70
     2
  9
$DIMTDEC
 70
     2
  9
$DIMALTU
 70
     2
  9
$DIMALTTD
 70
     3
  9
$DIMTXSTY
  7
Standard
  9
$DIMAUNIT
 70
     0
  9
$DIMADEC
 70
     2
  9
$DIMALTRND
 40
0.0
  9
$DIMAZIN
 70
     0
  9
$DIMDSEP
 70
    44
  9
$DIMATFIT
 70
     3
  9
$DIMFRAC
 70
     0
  9
$DIMLDRBLK
  1

  9
$DIMLUNIT
 70
     2
  9
$DIMLWD
 70
    -2
  9
$DIMLWE
 70
    -2
  9
$DIMTMOVE
 70
     0
  9
$LUNITS
 70
     2
  9
$LUPREC
 70
     2
  9
$SKETCHINC
 40
1.0
  9
$FILLETRAD
 40
10.0
  9
$AUNITS
 70
     0
  9
$AUPREC
 70
     2
  9
$MENU
  1
.
  9
$ELEVATION
 40
0.0
  9
$PELEVATION
 40
0.0
  9
$THICKNESS
 40
0.0
  9
$LIMCHECK
 70
     0
  9
$CHAMFERA
 40
0.0
  9
$CHAMFERB
 40
0.0
  9
$CHAMFERC
 40
0.0
  9
$CHAMFERD
 40
0.0
  9
$SKPOLY
 70
     0
  9
$TDCREATE
 40
2460704.460293761
  9
$TDUCREATE
 40
2460704.335293761
  9
$TDUPDATE
 40
2460704.460293935
  9
$TDUUPDATE
 40
2460704.335293935
  9
$TDINDWG
 40
0.0000000116
  9
$TDUSRTIMER
 40
0.0000000116
  9
$USRTIMER
 70
     1
  9
$ANGBASE
 50
0.0
  9
$ANGDIR
 70
     0
  9
$PDMODE
 70
     0
  9
$PDSIZE
 40
-1.0
  9
$PLINEWID
 40
0.0
  9
$SPLFRAME
 70
     0
  9
$SPLINETYPE
 70
     6
  9
$SPLINESEGS
 70
     8
  9
$HANDSEED
  5
B7
  9
$SURFTAB1
 70
     6
  9
$SURFTAB2
 70
     6
  9
$SURFTYPE
 70
     6
  9
$SURFU
 70
     6
  9
$SURFV
 70
     6
  9
$UCSBASE
  2

  9
$UCSNAME
  2

  9
$UCSORG
 10
0.0
 20
0.0
 30
0.0
  9
$UCSXDIR
 10
1.0
 20
0.0
 30
0.0
  9
$UCSYDIR
 10
0.0
 20
1.0
 30
0.0
  9
$UCSORTHOREF
  2

  9
$UCSORTHOVIEW
 70
     0
  9
$UCSORGTOP
 10
0.0
 20
0.0
 30
0.0
  9
$UCSORGBOTTOM
 10
0.0
 20
0.0
 30
0.0
  9
$UCSORGLEFT
 10
0.0
 20
0.0
 30
0.0
  9
$UCSORGRIGHT
 10
0.0
 20
0.0
 30
0.0
  9
$UCSORGFRONT
 10
0.0
 20
0.0
 30
0.0
  9
$UCSORGBACK
 10
0.0
 20
0.0
 30
0.0
  9
$PUCSBASE
  2

  9
$PUCSNAME
  2

  9
$PUCSORG
 10
0.0
 20
0.0
 30
0.0
  9
$PUCSXDIR
 10
1.0
 20
0.0
 30
0.0
  9
$PUCSYDIR
 10
0.0
 20
1.0
 30
0.0
  9
$PUCSORTHOREF
  2

  9
$PUCSORTHOVIEW
 70
     0
  9
$PUCSORGTOP
 10
0.0
 20
0.0
 30
0.0
  9
$PUCSORGBOTTOM
 10
0.0
 20
0.0
 30
0.0
  9
$PUCSORGLEFT
 10
0.0
 20
0.0
 30
0.0
  9
$PUCSORGRIGHT
 10
0.0
 20
0.0
 30
0.0
  9
$PUCSORGFRONT
 10
0.0
 20
0.0
 30
0.0
  9
$PUCSORGBACK
 10
0.0
 20
0.0
 30
0.0
  9
$USERI1
 70
     0
  9
$USERI2
 70
     0
  9
$USERI3
 70
     0
  9
$USERI4
 70
     0
  9
$USERI5
 70
     0
  9
$USERR1
 40
0.0
  9
$USERR2
 40
0.0
  9
$USERR3
 40
0.0
  9
$USERR4
 40
0.0
  9
$USERR5
 40
0.0
  9
$WORLDVIEW
 70
     1
  9
$SHADEDGE
 70
     3
  9
$SHADEDIF
 70
    70
  9
$TILEMODE
 70
     1
  9
$MAXACTVP
 70
    64
  9
$PINSBASE
 10
0.0
 20
0.0
 30
0.0
  9
$PLIMCHECK
 70
     0
  9
$PEXTMIN
 10
1.0000000000E+20
 20
1.0000000000E+20
 30
1.0000000000E+20
  9
$PEXTMAX
 10
-1.0000000000E+20
 20
-1.0000000000E+20
 30
-1.0000000000E+20
  9
$PLIMMIN
 10
0.0
 20
0.0
  9
$PLIMMAX
 10
420.0
 20
297.0
  9
$UNITMODE
 70
     0
  9
$VISRETAIN
 70
     1
  9
$PLINEGEN
 70
     0
  9
$PSLTSCALE
 70
     1
  9
$TREEDEPTH
 70
  3020
  9
$CMLSTYLE
  2
Standard
  9
$CMLJUST
 70
     0
  9
$CMLSCALE
 40
20.0
  9
$PROXYGRAPHICS
 70
     1
  9
$MEASUREMENT
 70
     1
  9
$CELWEIGHT
370
    -1
  9
$ENDCAPS
280
     0
  9
$JOINSTYLE
280
     0
  9
$LWDISPLAY
290
     1
  9
$INSUNITS
 70
     4
  9
$HYPERLINKBASE
  1

  9
$STYLESHEET
  1

  9
$XEDIT
290
     1
  9
$CEPSNTYPE
380
     0
  9
$PSTYLEMODE
290
     1
  9
$FINGERPRINTGUID
  2
{4d184d98-8200-4681-9064-99a8dee029f7}
  9
$VERSIONGUID
  2
{FAEB1C32-E019-11D5-929B-00C0DF256EC4}
  9
$EXTNAMES
290
     1
  9
$PSVPSCALE
 40
0.0
  9
$OLESTARTUP
290
     0
  0
ENDSEC
  0
SECTION
  2
CLASSES
  0
CLASS
  1
ACDBDICTIONARYWDFLT
  2
AcDbDictionaryWithDefault
  3
ObjectDBX Classes
 90
        0
280
     0
281
     0
  0
CLASS
  1
VISUALSTYLE
  2
AcDbVisualStyle
  3
ObjectDBX Classes
 90
     4095
280
     0
281
     0
  0
CLASS
  1
MATERIAL
  2
AcDbMaterial
  3
ObjectDBX Classes
 90
     1153
280
     0
281
     0
  0
CLASS
  1
SCALE
  2
AcDbScale
  3
ObjectDBX Classes
 90
     1153
280
     0
281
     0
  0
CLASS
  1
TABLESTYLE
  2
AcDbTableStyle
  3
ObjectDBX Classes
 90
     4095
280
     0
281
     0
  0
CLASS
  1
MLEADERSTYLE
  2
AcDbMLeaderStyle
  3
ACDB_MLEADERSTYLE_CLASS
 90
     4095
280
     0
281
     0
  0
CLASS
  1
SUN
  2
AcDbSun
  3
SCENEOE
 90
     1153
280
     0
281
     0
  0
CLASS
  1
ACDBPLACEHOLDER
  2
AcDbPlaceHolder
  3
ObjectDBX Classes
 90
        0
280
     0
281
     0
  0
CLASS
  1
LAYOUT
  2
AcDbLayout
  3
ObjectDBX Classes
 90
        0
280
     0
281
     0
  0
ENDSEC
  0
SECTION
  2
TABLES
  0
TABLE
  2
VPORT
  5
8
330
0
100
AcDbSymbolTable
 70
     1
  0
VPORT
  5
29
330
8
100
AcDbSymbolTableRecord
100
AcDbViewportTableRecord
  2
*Active
 70
     0
 10
0.0
 20
0.0
 11
1.0
 21
1.0
 12
139.7
 22
107.95
 13
0.0
 23
0.0
 14
10.0
 24
10.0
 15
10.0
 25
10.0
 16
0.0
 26
0.0
 36
1.0
 17
0.0
 27
0.0
 37
0.0
 40
215.9
 41
1.2941176471
 42
50.0
 43
0.0
 44
0.0
 50
0.0
 51
0.0
 71
     0
 72
  2000
 73
     1
 74
     3
 75
     0
 76
     0
 77
     0
 78
     0
281
     0
 65
     1
110
0.0
120
0.0
130
0.0
111
1.0
121
0.0
131
0.0
112
0.0
122
1.0
132
0.0
 79
     0
146
0.0
  0
ENDTAB
  0
TABLE
  2
LTYPE
  5
5
330
0
100
AcDbSymbolTable
 70
     6
  0
LTYPE
  5
14
330
5
100
AcDbSymbolTableRecord
100
AcDbLinetypeTableRecord
  2
ByBlock
 70
     0
  3

 72
    65
 73
     0
 40
0.0
  0
LTYPE
  5
15
330
5
100
AcDbSymbolTableRecord
100
AcDbLinetypeTableRecord
  2
ByLayer
 70
     0
  3

 72
    65
 73
     0
 40
0.0
  0
LTYPE
  5
16
330
5
100
AcDbSymbolTableRecord
100
AcDbLinetypeTableRecord
  2
Continuous
 70
     0
  3
Solid line
 72
    65
 73
     0
 40
0.0
  0
LTYPE
  5
6E
330
5
100
AcDbSymbolTableRecord
100
AcDbLinetypeTableRecord
  2
HIDDEN
 70
     0
  3
Hidden __ __ __ __ __ __ __ __ __ __ __ __ __ __
 72
    65
 73
     2
 40
1.905
 49
1.27
 74
     0
 49
-0.635
 74
     0
  0
LTYPE
  5
6F
330
5
100
AcDbSymbolTableRecord
100
AcDbLinetypeTableRecord
  2
PHANTOM
 70
     0
  3
Phantom ______  __  __  ______  __  __  ______
 72
    65
 73
     6
 40
12.7
 49
6.35
 74
     0
 49
-1.27
 74
     0
 49
1.27
 74
     0
 49
-1.27
 74
     0
 49
1.27
 74
     0
 49
-1.27
 74
     0
  0
LTYPE
  5
70
330
5
100
AcDbSymbolTableRecord
100
AcDbLinetypeTableRecord
  2
CENTER
 70
     0
  3
Center ____ _ ____ _ ____ _ ____ _ ____ _ ____
 72
    65
 73
     4
 40
10.16
 49
6.35
 74
     0
 49
-1.27
 74
     0
 49
1.27
 74
     0
 49
-1.27
 74
     0
  0
LTYPE
  5
71
330
5
100
AcDbSymbolTableRecord
100
AcDbLinetypeTableRecord
  2
CENTERX2
 70
     0
  3
Center (2x) ________  __  ________  __  _____
 72
    65
 73
     4
 40
20.32
 49
12.7
 74
     0
 49
-2.54
 74
     0
 49
2.54
 74
     0
 49
-2.54
 74
     0
  0
LTYPE
  5
72
330
5
100
AcDbSymbolTableRecord
100
AcDbLinetypeTableRecord
  2
DOT2
 70
     0
  3
Dot (.5x) ........................................
 72
    65
 73
     2
 40
0.635
 49
0.0
 74
     0
 49
-0.635
 74
     0
  0
ENDTAB
  0
TABLE
  2
LAYER
  5
2
330
0
100
AcDbSymbolTable
 70
    17
  0
LAYER
  5
10
330
2
100
AcDbSymbolTableRecord
100
AcDbLayerTableRecord
  2
0
 70
     0
 62
     7
  6
Continuous
370
    -3
390
F
  0
LAYER
  5
73
330
2
100
AcDbSymbolTableRecord
100
AcDbLayerTableRecord
  2
FORMAT
 70
     0
 62
     7
  6
Continuous
370
    -3
390
F
  0
LAYER
  5
74
330
2
100
AcDbSymbolTableRecord
100
AcDbLayerTableRecord
  2
YARDIMCI_GEOMETRI
 70
     0
 62
    -6
  6
Continuous
290
     0
370
    -3
390
F
  0
LAYER
  5
75
330
2
100
AcDbSymbolTableRecord
100
AcDbLayerTableRecord
  2
SAYFA_CERCEVESI
 70
     0
 62
     7
  6
Continuous
370
    25
390
F
  0
LAYER
  5
76
330
2
100
AcDbSymbolTableRecord
100
AcDbLayerTableRecord
  2
ANTET
 70
     0
 62
     7
  6
Continuous
370
    -3
390
F
  0
LAYER
  5
77
330
2
100
AcDbSymbolTableRecord
100
AcDbLayerTableRecord
  2
OLCU
 70
     0
 62
   150
  6
Continuous
370
    -3
390
F
  0
LAYER
  5
78
330
2
100
AcDbSymbolTableRecord
100
AcDbLayerTableRecord
  2
METIN
 70
     0
 62
    96
  6
Continuous
370
    -3
390
F
  0
LAYER
  5
79
330
2
100
AcDbSymbolTableRecord
100
AcDbLayerTableRecord
  2
BALON
 70
     0
 62
     5
  6
Continuous
370
    -3
390
F
  0
LAYER
  5
7A
330
2
100
AcDbSymbolTableRecord
100
AcDbLayerTableRecord
  2
VURGU
 70
     0
 62
     7
  6
Continuous
370
    -3
390
F
  0
LAYER
  5
7B
330
2
100
AcDbSymbolTableRecord
100
AcDbLayerTableRecord
  2
SILIK
 70
     0
 62
     7
  6
Continuous
370
    -3
390
F
  0
LAYER
  5
7C
330
2
100
AcDbSymbolTableRecord
100
AcDbLayerTableRecord
  2
MODEL
 70
     0
 62
     7
  6
Continuous
370
    -3
390
F
  0
LAYER
  5
7D
330
2
100
AcDbSymbolTableRecord
100
AcDbLayerTableRecord
  2
DETAYLANDıRMA
 70
     0
 62
   190
  6
Continuous
370
    -3
390
F
  0
LAYER
  5
7E
330
2
100
AcDbSymbolTableRecord
100
AcDbLayerTableRecord
  2
TOLERANS
 70
     0
 62
   230
  6
Continuous
370
    -3
390
F
  0
LAYER
  5
7F
330
2
100
AcDbSymbolTableRecord
100
AcDbLayerTableRecord
  2
MERKEZ_CIZGILERI
 70
     0
 62
    30
  6
Continuous
370
    -3
390
F
  0
LAYER
  5
80
330
2
100
AcDbSymbolTableRecord
100
AcDbLayerTableRecord
  2
KESIT-DETAY_CIZGILERI
 70
     0
 62
     7
  6
Continuous
370
    -3
390
F
  0
LAYER
  5
81
330
2
100
AcDbSymbolTableRecord
100
AcDbLayerTableRecord
  2
\U+041E\U+0421\U+0415\U+0412\U+042B\U+0415
 70
     0
 62
     7
  6
Continuous
370
    -3
390
F
  0
LAYER
  5
82
330
2
100
AcDbSymbolTableRecord
100
AcDbLayerTableRecord
  2
\U+0412\U+041E\U+0414\U+042F\U+041D\U+042B\U+0415_\U+0417\U+041D\U+0410\U+041A\U+0418
 70
     0
 62
    11
  6
Continuous
370
    -3
390
F
  0
ENDTAB
  0
TABLE
  2
STYLE
  5
3
330
0
100
AcDbSymbolTable
 70
     1
  0
STYLE
  5
11
330
3
100
AcDbSymbolTableRecord
100
AcDbTextStyleTableRecord
  2
Standard
 70
     0
 40
0.0
 41
1.0
 50
0.0
 71
     0
 42
3.5
  3
txt
  4

  0
ENDTAB
  0
TABLE
  2
VIEW
  5
6
330
0
100
AcDbSymbolTable
 70
     0
  0
ENDTAB
  0
TABLE
  2
UCS
  5
7
330
0
100
AcDbSymbolTable
 70
     0
  0
ENDTAB
  0
TABLE
  2
APPID
  5
9
330
0
100
AcDbSymbolTable
 70
     1
  0
APPID
  5
12
330
9
100
AcDbSymbolTableRecord
100
AcDbRegAppTableRecord
  2
ACAD
 70
     0
  0
ENDTAB
  0
TABLE
  2
DIMSTYLE
  5
A
330
0
100
AcDbSymbolTable
 70
     1
100
AcDbDimStyleTable
  0
DIMSTYLE
105
27
330
A
100
AcDbSymbolTableRecord
100
AcDbDimStyleTableRecord
  2
ISO-25
 70
     0
 41
2.5
 42
0.625
 43
3.75
 44
1.25
 73
     0
 74
     0
 77
     1
 78
     8
140
2.5
141
2.5
143
0.0393700787
147
0.625
171
     3
172
     1
178
     0
271
     2
272
     2
274
     3
278
    44
283
     0
284
     8
340
11
  0
ENDTAB
  0
TABLE
  2
BLOCK_RECORD
  5
1
330
0
100
AcDbSymbolTable
 70
     2
  0
BLOCK_RECORD
  5
1F
330
1
100
AcDbSymbolTableRecord
100
AcDbBlockTableRecord
  2
*Model_Space
340
22
  0
BLOCK_RECORD
  5
1B
330
1
100
AcDbSymbolTableRecord
100
AcDbBlockTableRecord
  2
*Paper_Space
340
1E
  0
BLOCK_RECORD
  5
23
330
1
100
AcDbSymbolTableRecord
100
AcDbBlockTableRecord
  2
*Paper_Space0
340
26
  0
BLOCK_RECORD
  5
85
330
1
100
AcDbSymbolTableRecord
100
AcDbBlockTableRecord
  2
SW_CENTERMARKSYMBOL_0
340
0
102
{BLKREFS
331
90
102
}
  0
ENDTAB
  0
ENDSEC
  0
SECTION
  2
BLOCKS
  0
BLOCK
  5
20
330
1F
100
AcDbEntity
  8
0
100
AcDbBlockBegin
  2
*Model_Space
 70
     0
 10
0.0
 20
0.0
 30
0.0
  3
*Model_Space
  1

  0
ENDBLK
  5
21
330
1F
100
AcDbEntity
  8
0
100
AcDbBlockEnd
  0
BLOCK
  5
1C
330
1B
100
AcDbEntity
 67
     1
  8
0
100
AcDbBlockBegin
  2
*Paper_Space
 70
     0
 10
0.0
 20
0.0
 30
0.0
  3
*Paper_Space
  1

  0
ENDBLK
  5
1D
330
1B
100
AcDbEntity
 67
     1
  8
0
100
AcDbBlockEnd
  0
BLOCK
  5
24
330
23
100
AcDbEntity
  8
0
100
AcDbBlockBegin
  2
*Paper_Space0
 70
     0
 10
0.0
 20
0.0
 30
0.0
  3
*Paper_Space0
  1

  0
ENDBLK
  5
25
330
23
100
AcDbEntity
  8
0
100
AcDbBlockEnd
  0
BLOCK
  5
86
330
85
100
AcDbEntity
  8
0
100
AcDbBlockBegin
  2
SW_CENTERMARKSYMBOL_0
 70
     0
 10
0.0
 20
0.0
 30
0.0
  3
SW_CENTERMARKSYMBOL_0
  1

  0
LINE
  5
88
330
85
100
AcDbEntity
  8
FORMAT
 62
     0
100
AcDbLine
 10
0.0
 20
0.0
 30
0.0
 11
0.0
 21
2.5
 31
0.0
  0
LINE
  5
89
330
85
100
AcDbEntity
  8
FORMAT
 62
     0
100
AcDbLine
 10
0.0
 20
0.0
 30
0.0
 11
-2.5
 21
0.0
 31
0.0
  0
LINE
  5
8A
330
85
100
AcDbEntity
  8
FORMAT
 62
     0
100
AcDbLine
 10
0.0
 20
0.0
 30
0.0
 11
0.0
 21
-2.5
 31
0.0
  0
LINE
  5
8B
330
85
100
AcDbEntity
  8
FORMAT
 62
     0
100
AcDbLine
 10
0.0
 20
0.0
 30
0.0
 11
2.5
 21
0.0
 31
0.0
  0
LINE
  5
8C
330
85
100
AcDbEntity
  8
FORMAT
 62
     0
100
AcDbLine
 10
0.0
 20
5.0
 30
0.0
 11
0.0
 21
202.5
 31
0.0
  0
LINE
  5
8D
330
85
100
AcDbEntity
  8
FORMAT
 62
     0
100
AcDbLine
 10
-5.0
 20
0.0
 30
0.0
 11
-202.5
 21
0.0
 31
0.0
  0
LINE
  5
8E
330
85
100
AcDbEntity
  8
FORMAT
 62
     0
100
AcDbLine
 10
0.0
 20
-5.0
 30
0.0
 11
0.0
 21
-202.5
 31
0.0
  0
LINE
  5
8F
330
85
100
AcDbEntity
  8
FORMAT
 62
     0
100
AcDbLine
 10
5.0
 20
0.0
 30
0.0
 11
202.5
 21
0.0
 31
0.0
  0
ENDBLK
  5
87
330
85
100
AcDbEntity
  8
0
100
AcDbBlockEnd
  0
ENDSEC
  0
SECTION
  2
ENTITIES
  0
CIRCLE
  5
83
330
1F
100
AcDbEntity
  8
0
  6
Continuous
 62
     7
370
    25
100
AcDbCircle
 10
139.2888614171
 20
110.5893064689
 30
0.0
 40
200.0000000000001
  0
CIRCLE
  5
84
330
1F
100
AcDbEntity
  8
0
  6
Continuous
 62
     7
370
    25
100
AcDbCircle
 10
139.2888614171
 20
110.5893064689
 30
0.0
 40
176.3000000000001
  0
INSERT
  5
90
330
1F
100
AcDbEntity
  8
FORMAT
 62
     7
100
AcDbBlockReference
  2
SW_CENTERMARKSYMBOL_0
 10
139.2888614171
 20
110.5893064689
 30
0.0
  0
ARC
  5
91
330
1F
100
AcDbEntity
  8
0
  6
Continuous
 62
     7
370
    25
100
AcDbCircle
 10
132.6814029037
 20
303.2124052411
 30
0.0
 40
800.0000000000001
100
AcDbArc
 50
256.0107006834
 51
270.0
  0
ARC
  5
92
330
1F
100
AcDbEntity
  8
0
  6
Continuous
 62
     7
370
    25
100
AcDbCircle
 10
145.8963199305
 20
303.2124052411
 30
0.0
 40
800.0000000000001
100
AcDbArc
 50
270.0
 51
283.9892993166
  0
LINE
  5
93
330
1F
100
AcDbEntity
  8
0
  6
Continuous
 62
     7
370
    25
100
AcDbLine
 10
132.6814029037
 20
-496.7875947589
 30
0.0
 11
145.8963199305
 21
-496.7875947589
 31
0.0
  0
LINE
  5
94
330
1F
100
AcDbEntity
  8
0
  6
Continuous
 62
     7
370
    25
100
AcDbLine
 10
-60.7111385829
 20
-265.3147723369
 30
0.0
 11
-60.7111385829
 21
-473.0603077261
 31
0.0
  0
LINE
  5
95
330
1F
100
AcDbEntity
  8
0
  6
Continuous
 62
     7
370
    25
100
AcDbLine
 10
339.2888614171
 20
-473.0603077261
 30
0.0
 11
339.2888614171
 21
-265.3147723369
 31
0.0
  0
LINE
  5
96
330
1F
100
AcDbEntity
  8
0
  6
Continuous
 62
     7
370
    25
100
AcDbLine
 10
139.2888614171
 20
-473.0603077261
 30
0.0
 11
339.2888614171
 21
-473.0603077261
 31
0.0
  0
LINE
  5
97
330
1F
100
AcDbEntity
  8
0
  6
Continuous
 62
     7
370
    25
100
AcDbLine
 10
-60.7111385829
 20
-473.0603077261
 30
0.0
 11
139.2888614171
 21
-473.0603077261
 31
0.0
  0
LINE
  5
98
330
1F
100
AcDbEntity
  8
0
  6
Continuous
 62
     7
370
    25
100
AcDbLine
 10
139.2888614171
 20
-265.3147723369
 30
0.0
 11
339.2888614171
 21
-265.3147723369
 31
0.0
  0
LINE
  5
99
330
1F
100
AcDbEntity
  8
0
  6
Continuous
 62
     7
370
    25
100
AcDbLine
 10
-60.7111385829
 20
-265.3147723369
 30
0.0
 11
139.2888614171
 21
-265.3147723369
 31
0.0
  0
LINE
  5
9A
330
1F
100
AcDbEntity
  8
0
  6
Continuous
 62
     7
370
    25
100
AcDbLine
 10
339.2888614171
 20
441.9651189714
 30
0.0
 11
339.2888614171
 21
649.7106543606
 31
0.0
  0
LINE
  5
9B
330
1F
100
AcDbEntity
  8
0
  6
Continuous
 62
     7
370
    25
100
AcDbLine
 10
-60.7111385829
 20
649.7106543606
 30
0.0
 11
-60.7111385829
 21
441.9651189714
 31
0.0
  0
ARC
  5
9C
330
1F
100
AcDbEntity
  8
0
  6
Continuous
 62
     7
370
    25
100
AcDbCircle
 10
145.8963199305
 20
-126.5620586065
 30
0.0
 40
800.0000000000003
100
AcDbArc
 50
76.0107006834
 51
90.0
  0
ARC
  5
9D
330
1F
100
AcDbEntity
  8
0
  6
Continuous
 62
     7
370
    25
100
AcDbCircle
 10
132.6814029037
 20
-126.5620586065
 30
0.0
 40
800.0000000000001
100
AcDbArc
 50
90.0
 51
103.9892993166
  0
LINE
  5
9E
330
1F
100
AcDbEntity
  8
0
  6
Continuous
 62
     7
370
    25
100
AcDbLine
 10
145.8963199305
 20
673.4379413935
 30
0.0
 11
132.6814029037
 21
673.4379413935
 31
0.0
  0
LINE
  5
9F
330
1F
100
AcDbEntity
  8
0
  6
Continuous
 62
     7
370
    25
100
AcDbLine
 10
339.2888614171
 20
441.9651189714
 30
0.0
 11
-60.7111385829
 21
441.9651189714
 31
0.0
  0
LINE
  5
A0
330
1F
100
AcDbEntity
  8
0
  6
Continuous
 62
     7
370
    25
100
AcDbLine
 10
339.2888614171
 20
649.7106543606
 30
0.0
 11
-60.7111385829
 21
649.7106543606
 31
0.0
  0
ARC
  5
A1
330
1F
100
AcDbEntity
  8
0
  6
Continuous
 62
     7
370
    25
100
AcDbCircle
 10
1348.552825689
 20
117.1967649823
 30
0.0
 40
800.0000000000001
100
AcDbArc
 50
166.0107006834
 51
180.0
  0
ARC
  5
A2
330
1F
100
AcDbEntity
  8
0
  6
Continuous
 62
     7
370
    25
100
AcDbCircle
 10
1348.552825689
 20
103.9818479555
 30
0.0
 40
800.0000000000001
100
AcDbArc
 50
180.0
 51
193.9892993166
  0
LINE
  5
A3
330
1F
100
AcDbEntity
  8
0
  6
Continuous
 62
     7
370
    25
100
AcDbLine
 10
548.552825689
 20
117.1967649823
 30
0.0
 11
548.552825689
 21
103.9818479555
 31
0.0
  0
LINE
  5
A4
330
1F
100
AcDbEntity
  8
0
  6
Continuous
 62
     7
370
    25
100
AcDbLine
 10
780.0256481111
 20
310.5893064689
 30
0.0
 11
572.2801127219
 21
310.5893064689
 31
0.0
  0
LINE
  5
A5
330
1F
100
AcDbEntity
  8
0
  6
Continuous
 62
     7
370
    25
100
AcDbLine
 10
572.2801127219
 20
-89.4106935311
 30
0.0
 11
780.0256481111
 21
-89.4106935311
 31
0.0
  0
LINE
  5
A6
330
1F
100
AcDbEntity
  8
0
  6
Continuous
 62
     7
370
    25
100
AcDbLine
 10
572.2801127219
 20
310.5893064689
 30
0.0
 11
572.2801127219
 21
-89.4106935311
 31
0.0
  0
LINE
  5
A7
330
1F
100
AcDbEntity
  8
0
  6
Continuous
 62
     7
370
    25
100
AcDbLine
 10
780.0256481111
 20
310.5893064689
 30
0.0
 11
780.0256481111
 21
-89.4106935311
 31
0.0
  0
ARC
  5
A8
330
1F
100
AcDbEntity
  8
0
  6
Continuous
 62
     7
370
    25
100
AcDbCircle
 10
-995.7347220106
 20
103.9818479555
 30
0.0
 40
800.0000000000001
100
AcDbArc
 50
346.0107006834
 51
0.0
  0
ARC
  5
A9
330
1F
100
AcDbEntity
  8
0
  6
Continuous
 62
     7
370
    25
100
AcDbCircle
 10
-995.7347220106
 20
117.1967649823
 30
0.0
 40
800.0000000000001
100
AcDbArc
 50
0.0
 51
13.9892993166
  0
LINE
  5
AA
330
1F
100
AcDbEntity
  8
0
  6
Continuous
 62
     7
370
    25
100
AcDbLine
 10
-195.7347220106
 20
103.9818479555
 30
0.0
 11
-195.7347220106
 21
117.1967649823
 31
0.0
  0
LINE
  5
AB
330
1F
100
AcDbEntity
  8
0
  6
Continuous
 62
     7
370
    25
100
AcDbLine
 10
-427.2075444327
 20
-89.4106935311
 30
0.0
 11
-219.4620090435
 21
-89.4106935311
 31
0.0
  0
LINE
  5
AC
330
1F
100
AcDbEntity
  8
0
  6
Continuous
 62
     7
370
    25
100
AcDbLine
 10
-219.4620090435
 20
310.5893064689
 30
0.0
 11
-427.2075444327
 21
310.5893064689
 31
0.0
  0
LINE
  5
AD
330
1F
100
AcDbEntity
  8
0
  6
Continuous
 62
     7
370
    25
100
AcDbLine
 10
-219.4620090435
 20
-89.4106935311
 30
0.0
 11
-219.4620090435
 21
310.5893064689
 31
0.0
  0
LINE
  5
AE
330
1F
100
AcDbEntity
  8
0
  6
Continuous
 62
     7
370
    25
100
AcDbLine
 10
-427.2075444327
 20
-89.4106935311
 30
0.0
 11
-427.2075444327
 21
310.5893064689
 31
0.0
  0
LINE
  5
AF
330
1F
100
AcDbEntity
  8
0
  6
Continuous
 62
     7
370
    25
100
AcDbLine
 10
501.2731486106
 20
-513.8966622887
 30
0.0
 11
648.1714254455
 21
-598.699232432
 31
0.0
  0
LINE
  5
B0
330
1F
100
AcDbEntity
  8
0
  6
Continuous
 62
     7
370
    25
100
AcDbLine
 10
848.1551719727
 20
-252.2796874798
 30
0.0
 11
701.2568951378
 21
-167.4771173364
 31
0.0
  0
LWPOLYLINE
  5
B1
330
1F
100
AcDbEntity
  8
0
  6
Continuous
 62
     7
370
    25
100
AcDbPolyline
 90
      151
 70
   128
 43
0.0
 10
601.2650218742
 20
-503.9950521897
 10
607.1871336179
 20
-500.4330408458
 10
613.0988559652
 20
-496.5907804709
 10
618.9898177464
 20
-492.4750116953
 10
624.8496842128
 20
-488.0929549759
 10
630.6681751672
 20
-483.4522979294
 10
636.4350829995
 20
-478.561181845
 10
642.1402905938
 20
-473.4281874023
 10
647.7737890772
 20
-468.0623196179
 10
653.3256953791
 20
-462.4729920472
 10
658.7862695694
 20
-456.6700102699
 10
664.1459319453
 20
-450.663554688
 10
669.3952798379
 20
-444.4641626656
 10
674.5251041073
 20
-438.0827100429
 10
679.5264052984
 20
-431.5303920562
 10
684.3904094297
 20
-424.8187036977
 10
689.1085833849
 20
-417.9594195494
 10
693.6726498839
 20
-410.9645731267
 10
698.0746020029
 20
-403.8464357668
 10
702.3067172223
 20
-396.6174951017
 10
706.3615709739
 20
-389.2904331494
 10
710.2320496663
 20
-381.8781040666
 10
713.9113631647
 20
-374.3935115971
 10
717.3930567031
 20
-366.8497862594
 10
720.6710222077
 20
-359.2601623112
 10
723.7395090133
 20
-351.6379545317
 10
726.5931339514
 20
-343.9965348635
 10
729.2268907941
 20
-336.3493089533
 10
731.636159037
 20
-328.7096926338
 10
733.8167120049
 20
-321.0910883881
 10
735.764724267
 20
-313.5068618367
 10
737.4767783477
 20
-305.9703182903
 10
738.9498707225
 20
-298.494679407
 10
740.1814170868
 20
-291.0930599979
 10
741.1692568898
 20
-283.7784450183
 10
741.9116571249
 20
-276.5636667885
 10
742.4073153696
 20
-269.4613824811
 10
742.6553620711
 20
-262.4840519162
 10
742.6553620711
 20
-255.6439157024
 10
742.4073153696
 20
-248.952973763
 10
741.9116571249
 20
-242.4229642838
 10
741.1692568898
 20
-236.0653431203
 10
740.1814170868
 20
-229.8912637002
 10
738.9498707225
 20
-223.911557457
 10
737.4767783477
 20
-218.1367148273
 10
735.764724267
 20
-212.5768668473
 10
733.8167120049
 20
-207.2417673797
 10
731.636159037
 20
-202.1407760018
 10
729.2268907941
 20
-197.2828415858
 10
726.5931339514
 20
-192.6764865994
 10
723.7395090133
 20
-188.3297921546
 10
720.6710222077
 20
-184.2503838303
 10
717.3930567031
 20
-180.4454182949
 10
713.9113631647
 20
-176.9215707511
 10
710.2320496663
 20
-173.6850232247
 10
706.3615709739
 20
-170.7414537199
 10
702.3067172223
 20
-168.0960262579
 10
698.0746020029
 20
-165.7533818173
 10
693.6726498839
 20
-163.7176301925
 10
689.1085833849
 20
-161.9923427837
 10
684.3904094297
 20
-160.5805463312
 10
679.5264052984
 20
-159.4847176056
 10
674.5251041073
 20
-158.7067790631
 10
669.3952798379
 20
-158.2480954721
 10
664.1459319453
 20
-158.1094715194
 10
658.7862695694
 20
-158.2911503987
 10
653.3256953791
 20
-158.7928133834
 10
647.7737890772
 20
-159.6135803861
 10
642.1402905938
 20
-160.7520115028
 10
636.4350829995
 20
-162.2061095382
 10
630.6681751672
 20
-163.9733235105
 10
624.8496842128
 20
-166.0505531257
 10
618.9898177464
 20
-168.4341542172
 10
613.0988559652
 20
-171.1199451389
 10
607.1871336179
 20
-174.1032141008
 10
601.2650218742
 20
-177.3787274354
 10
595.3429101305
 20
-180.9407387793
 10
589.4311877831
 20
-184.7829991542
 10
583.5402260019
 20
-188.8987679298
 10
577.6803595356
 20
-193.2808246492
 10
571.8618685811
 20
-197.9214816957
 10
566.0949607488
 20
-202.8125977801
 10
560.3897531546
 20
-207.9455922228
 10
554.7562546712
 20
-213.3114600072
 10
549.2043483693
 20
-218.9007875779
 10
543.743774179
 20
-224.7037693552
 10
538.384111803
 20
-230.7102249371
 10
533.1347639104
 20
-236.9096169595
 10
528.0049396411
 20
-243.2910695822
 10
523.0036384499
 20
-249.8433875689
 10
518.1396343187
 20
-256.5550759274
 10
513.4214603634
 20
-263.4143600757
 10
508.8573938645
 20
-270.4092064984
 10
504.4554417454
 20
-277.5273438583
 10
500.223326526
 20
-284.7562845234
 10
496.1684727744
 20
-292.0833464757
 10
492.297994082
 20
-299.4956755585
 10
488.6186805836
 20
-306.980268028
 10
485.1369870453
 20
-314.5239933657
 10
481.8590215406
 20
-322.1136173139
 10
478.790534735
 20
-329.7358250934
 10
475.9369097969
 20
-337.3772447616
 10
473.3031529542
 20
-345.0244706718
 10
470.8938847113
 20
-352.6640869913
 10
468.7133317434
 20
-360.282691237
 10
466.7653194814
 20
-367.8669177884
 10
465.0532654006
 20
-375.4034613348
 10
463.5801730258
 20
-382.8791002181
 10
462.3486266615
 20
-390.2807196272
 10
461.3607868585
 20
-397.5953346068
 10
460.6183866235
 20
-404.8101128366
 10
460.1227283788
 20
-411.912397144
 10
459.8746816773
 20
-418.8897277089
 10
459.8746816773
 20
-425.7298639227
 10
460.1227283788
 20
-432.4208058621
 10
460.6183866235
 20
-438.9508153413
 10
461.3607868585
 20
-445.3084365048
 10
462.3486266615
 20
-451.4825159249
 10
463.5801730258
 20
-457.4622221681
 10
465.0532654006
 20
-463.2370647978
 10
466.7653194814
 20
-468.7969127778
 10
468.7133317434
 20
-474.1320122454
 10
470.8938847113
 20
-479.2330036233
 10
473.3031529542
 20
-484.0909380393
 10
475.9369097969
 20
-488.6972930257
 10
478.790534735
 20
-493.0439874705
 10
481.8590215406
 20
-497.1233957948
 10
485.1369870453
 20
-500.9283613302
 10
488.6186805836
 20
-504.452208874
 10
492.297994082
 20
-507.6887564004
 10
496.1684727744
 20
-510.6323259052
 10
500.223326526
 20
-513.2777533672
 10
504.4554417454
 20
-515.6203978078
 10
508.8573938645
 20
-517.6561494326
 10
513.4214603634
 20
-519.3814368414
 10
518.1396343187
 20
-520.7932332939
 10
523.0036384499
 20
-521.8890620195
 10
528.0049396411
 20
-522.667000562
 10
533.1347639104
 20
-523.125684153
 10
538.384111803
 20
-523.2643081057
 10
543.743774179
 20
-523.0826292264
 10
549.2043483693
 20
-522.5809662417
 10
554.7562546712
 20
-521.760199239
 10
560.3897531546
 20
-520.6217681223
 10
566.0949607488
 20
-519.1676700869
 10
571.8618685811
 20
-517.4004561146
 10
577.6803595356
 20
-515.3232264994
 10
583.5402260019
 20
-512.9396254079
 10
589.4311877831
 20
-510.2538344862
 10
595.3429101305
 20
-507.2705655243
 10
601.2650218742
 20
-503.9950521897
  0
LWPOLYLINE
  5
B2
330
1F
100
AcDbEntity
  8
0
  6
Continuous
 62
     7
370
    25
100
AcDbPolyline
 90
       58
 70
   128
 43
0.0
 10
748.1632987091
 20
-588.7976223331
 10
754.0854104528
 20
-585.2356109892
 10
759.9971328002
 20
-581.3933506143
 10
765.8880945814
 20
-577.2775818386
 10
771.7479610477
 20
-572.8955251193
 10
777.5664520022
 20
-568.2548680727
 10
783.3333598345
 20
-563.3637519883
 10
789.0385674287
 20
-558.2307575457
 10
794.6720659121
 20
-552.8648897613
 10
800.223972214
 20
-547.2755621905
 10
805.6845464043
 20
-541.4725804132
 10
811.0442087803
 20
-535.4661248314
 10
816.2935566729
 20
-529.266732809
 10
821.4233809422
 20
-522.8852801863
 10
826.4246821334
 20
-516.3329621995
 10
831.2886862646
 20
-509.621273841
 10
836.0068602199
 20
-502.7619896928
 10
840.5709267188
 20
-495.76714327
 10
844.9728788379
 20
-488.6490059102
 10
849.2049940573
 20
-481.420065245
 10
853.2598478089
 20
-474.0930032928
 10
857.1303265013
 20
-466.68067421
 10
860.8096399997
 20
-459.1960817405
 10
864.291333538
 20
-451.6523564028
 10
867.5692990426
 20
-444.0627324545
 10
870.6377858483
 20
-436.4405246751
 10
873.4914107863
 20
-428.7991050069
 10
876.1251676291
 20
-421.1518790966
 10
878.534435872
 20
-413.5122627772
 10
880.7149888399
 20
-405.8936585314
 10
882.6630011019
 20
-398.3094319801
 10
884.3750551826
 20
-390.7728884336
 10
885.8481475575
 20
-383.2972495504
 10
887.0796939218
 20
-375.8956301412
 10
888.0675337248
 20
-368.5810151616
 10
888.8099339598
 20
-361.3662369319
 10
889.3055922045
 20
-354.2639526245
 10
889.553638906
 20
-347.2866220595
 10
889.553638906
 20
-340.4464858458
 10
889.3055922045
 20
-333.7555439064
 10
888.8099339598
 20
-327.2255344272
 10
888.0675337248
 20
-320.8679132636
 10
887.0796939218
 20
-314.6938338436
 10
885.8481475575
 20
-308.7141276004
 10
884.3750551826
 20
-302.9392849707
 10
882.6630011019
 20
-297.3794369907
 10
880.7149888399
 20
-292.0443375231
 10
878.534435872
 20
-286.9433461452
 10
876.1251676291
 20
-282.0854117292
 10
873.4914107863
 20
-277.4790567428
 10
870.6377858483
 20
-273.1323622979
 10
867.5692990426
 20
-269.0529539736
 10
864.291333538
 20
-265.2479884383
 10
860.8096399997
 20
-261.7241408944
 10
857.1303265013
 20
-258.487593368
 10
853.2598478089
 20
-255.5440238632
 10
849.2049940573
 20
-252.8985964012
 10
848.1551719727
 20
-252.2796874798
  0
LWPOLYLINE
  5
B3
330
1F
100
AcDbEntity
  8
0
  6
Continuous
 62
     7
370
    25
100
AcDbPolyline
 90
       20
 70
   128
 43
0.0
 10
648.1714254455
 20
-598.699232432
 10
651.3537185804
 20
-600.4229679512
 10
655.7556706994
 20
-602.4587195759
 10
660.3197371984
 20
-604.1840069848
 10
665.0379111536
 20
-605.5958034373
 10
669.9019152849
 20
-606.6916321628
 10
674.903216476
 20
-607.4695707054
 10
680.0330407453
 20
-607.9282542964
 10
685.282388638
 20
-608.066878249
 10
690.6420510139
 20
-607.8851993698
 10
696.1026252042
 20
-607.3835363851
 10
701.6545315061
 20
-606.5627693823
 10
707.2880299895
 20
-605.4243382657
 10
712.9932375838
 20
-603.9702402302
 10
718.7601454161
 20
-602.203026258
 10
724.5786363705
 20
-600.1257966428
 10
730.4385028368
 20
-597.7421955512
 10
736.329464618
 20
-595.0564046295
 10
742.2411869654
 20
-592.0731356676
 10
748.1632987091
 20
-588.7976223331
  0
LWPOLYLINE
  5
B4
330
1F
100
AcDbEntity
  8
0
  6
Continuous
 62
     7
370
    25
100
AcDbPolyline
 90
      142
 70
   128
 43
0.0
 10
601.2650218742
 20
-484.643034948
 10
606.8183626999
 20
-481.2942537278
 10
612.3606778815
 20
-477.6663096018
 10
617.8809636651
 20
-473.7664055172
 10
623.3682600344
 20
-469.6022843726
 10
628.8116724703
 20
-465.1822136451
 10
634.2003935812
 20
-460.5149689759
 10
639.5237245603
 20
-455.6098167474
 10
644.7710964266
 20
-450.4764956852
 10
649.9320910089
 20
-445.1251975232
 10
654.9964616304
 20
-439.5665467684
 10
659.9541534518
 20
-433.8115796076
 10
664.795323435
 20
-427.8717219952
 10
669.5103598851
 20
-421.7587669686
 10
674.0899015336
 20
-415.4848512344
 10
678.5248561246
 20
-409.0624310714
 10
682.8064184662
 20
-402.5042576003
 10
686.9260879127
 20
-395.8233514677
 10
690.8756852418
 20
-389.032976994
 10
694.6473688934
 20
-382.1466158394
 10
698.233650539
 20
-375.1779402365
 10
701.6274099482
 20
-368.1407858455
 10
704.8219091258
 20
-361.0491242853
 10
707.8108056895
 20
-353.9170353933
 10
710.5881654618
 20
-346.758679272
 10
713.1484742519
 20
-339.5882681747
 10
715.4866488037
 20
-332.4200382889
 10
717.5980468881
 20
-325.2682214717
 10
719.4784765197
 20
-318.1470169932
 10
721.1242042794
 20
-311.0705633458
 10
722.5319627272
 20
-304.0529101732
 10
723.6989568888
 20
-297.1079903761
 10
724.6228698056
 20
-290.24959245
 10
725.3018671338
 20
-283.4913331092
 10
725.7346007871
 20
-276.8466302519
 10
725.920211613
 20
-270.3286763206
 10
725.8583310983
 20
-263.9504121096
 10
725.549082101
 20
-257.724501072
 10
724.9930786064
 20
-251.6633041778
 10
724.191424508
 20
-245.7788553725
 10
723.1457114157
 20
-240.0828376845
 10
721.8580154962
 20
-234.5865600296
 10
720.3308933505
 20
-229.3009347585
 10
718.5673769382
 20
-224.2364559906
 10
716.570967558
 20
-219.40317878
 10
714.3456288958
 20
-214.8106991511
 10
711.8957791556
 20
-210.4681350471
 10
709.2262822873
 20
-206.384108227
 10
706.3424383299
 20
-202.5667271482
 10
703.2499728885
 20
-199.0235708673
 10
699.955025767
 20
-195.7616739931
 10
696.464138778
 20
-192.7875127201
 10
692.7842427544
 20
-190.1069919701
 10
688.9226437892
 20
-187.7254336689
 10
684.8870087296
 20
-185.6475661801
 10
680.6853499556
 20
-183.8775149172
 10
676.3260094716
 20
-182.4187941532
 10
671.8176423448
 20
-181.2743000432
 10
667.1691995206
 20
-180.4463048742
 10
662.3899100522
 20
-179.936452554
 10
657.4892627762
 20
-179.7457553473
 10
652.4769874743
 20
-179.8745918656
 10
647.3630355551
 20
-180.322706316
 10
642.1575602968
 20
-181.0892090087
 10
636.8708966886
 20
-182.1725781236
 10
631.5135409118
 20
-183.5706627315
 10
626.0961295004
 20
-185.280687065
 10
620.6294182233
 20
-187.2992560289
 10
615.1242607297
 20
-189.6223619415
 10
609.5915870002
 20
-192.245392491
 10
604.0423816464
 20
-195.163139893
 10
598.4876621019
 20
-198.3698112301
 10
592.9384567481
 20
-201.8590399533
 10
587.4057830186
 20
-205.6238985218
 10
581.900625525
 20
-209.6569121576
 10
576.4339142479
 20
-213.9500736852
 10
571.0165028365
 20
-218.49485943
 10
565.6591470597
 20
-223.2822461404
 10
560.3724834516
 20
-228.3027289034
 10
555.1670081932
 20
-233.5463400151
 10
550.053056274
 20
-239.002668771
 10
545.0407809721
 20
-244.6608821355
 10
540.1401336962
 20
-250.5097462496
 10
535.3608442277
 20
-256.537648735
 10
530.7124014036
 20
-262.7326217494
 10
526.2040342767
 20
-269.0823657472
 10
521.8446937928
 20
-275.5742738996
 10
517.6430350187
 20
-282.1954571237
 10
513.6073999592
 20
-288.9327696732
 10
509.745800994
 20
-295.7728352377
 10
506.0659049704
 20
-302.7020735
 10
502.5750179814
 20
-309.7067270991
 10
499.2800708599
 20
-316.7728889436
 10
496.1876054185
 20
-323.8865298233
 10
493.303761461
 20
-331.0335262626
 10
490.6342645927
 20
-338.1996885617
 10
488.1844148525
 20
-345.3707889686
 10
485.9590761904
 20
-352.5325899273
 10
483.9626668101
 20
-359.670872345
 10
482.1991503979
 20
-366.7714638225
 10
480.6720282521
 20
-373.8202667929
 10
479.3843323326
 20
-380.8032865102
 10
478.3386192404
 20
-387.7066588353
 10
477.536965142
 20
-394.5166777613
 10
476.9809616474
 20
-401.219822626
 10
476.6717126501
 20
-407.8027849559
 10
476.6098321354
 20
-414.2524948885
 10
476.7954429612
 20
-420.5561471217
 10
477.2281766146
 20
-426.7012263376
 10
477.9071739428
 20
-432.6755320503
 10
478.8310868595
 20
-438.4672028286
 10
479.9980810212
 20
-444.0647398464
 10
481.4058394689
 20
-449.4570297121
 10
483.0515672287
 20
-454.6333665332
 10
484.9319968602
 20
-459.5834731723
 10
487.0433949446
 20
-464.2975216506
 10
489.3815694965
 20
-468.7661526614
 10
491.9418782866
 20
-472.9804941513
 10
494.7192380589
 20
-476.9321789356
 10
497.7081346225
 20
-480.6133613097
 10
500.9026338002
 20
-484.0167326269
 10
504.2963932094
 20
-487.1355358084
 10
507.8826748549
 20
-489.9635787593
 10
511.6543585066
 20
-492.4952466619
 10
515.6039558356
 20
-494.725513124
 10
519.7236252821
 20
-496.6499501581
 10
524.0051876237
 20
-498.2647369725
 10
528.4401422147
 20
-499.5666675574
 10
533.0196838633
 20
-500.5531570503
 10
537.7347203134
 20
-501.2222468674
 10
542.5758902966
 20
-501.572608593
 10
547.533582118
 20
-501.6035466163
 10
552.5979527394
 20
-501.3149995126
 10
557.7589473218
 20
-500.7075401655
 10
563.0063191881
 20
-499.7823746294
 10
568.3296501671
 20
-498.5413397348
 10
573.7183712781
 20
-496.9868994415
 10
579.1617837139
 20
-495.122139947
 10
584.6490800832
 20
-492.9507635585
 10
590.1693658668
 20
-490.4770813429
 10
595.7116810484
 20
-487.7060045673
 10
601.2650218742
 20
-484.643034948
  0
LWPOLYLINE
  5
B5
330
1F
100
AcDbEntity
  8
0
  6
Continuous
 62
     7
370
    25
100
AcDbPolyline
 90
       34
 70
   128
 43
0.0
 10
725.5799668229
 20
-279.6699716289
 10
721.0489646629
 20
-282.7744650891
 10
715.5438071693
 20
-286.8074787248
 10
710.0770958922
 20
-291.1006402525
 10
704.6596844808
 20
-295.6454259972
 10
699.302328704
 20
-300.4328127077
 10
694.0156650958
 20
-305.4532954707
 10
688.8101898375
 20
-310.6969065824
 10
683.6962379183
 20
-316.1532353383
 10
678.6839626164
 20
-321.8114487027
 10
673.7833153404
 20
-327.6603128168
 10
669.004025872
 20
-333.6882153023
 10
664.3555830478
 20
-339.8831883166
 10
659.847215921
 20
-346.2329323145
 10
655.487875437
 20
-352.7248404668
 10
651.286216663
 20
-359.3460236909
 10
647.2505816034
 20
-366.0833362404
 10
643.3889826382
 20
-372.9234018049
 10
639.7090866146
 20
-379.8526400673
 10
636.2181996256
 20
-386.8572936664
 10
632.9232525041
 20
-393.9234555109
 10
629.8307870627
 20
-401.0370963906
 10
626.9469431053
 20
-408.1840928299
 10
624.277446237
 20
-415.3502551289
 10
621.8275964968
 20
-422.5213555359
 10
619.6022578346
 20
-429.6831564946
 10
617.6058484544
 20
-436.8214389122
 10
615.8423320421
 20
-443.9220303898
 10
614.3152098964
 20
-450.9708333601
 10
613.0275139769
 20
-457.9538530775
 10
611.9818008846
 20
-464.8572254025
 10
611.1801467862
 20
-471.6672443285
 10
610.6241432916
 20
-478.3703891933
 10
610.5932585697
 20
-478.8543745635
  0
ENDSEC
  0
SECTION
  2
OBJECTS
  0
DICTIONARY
  5
C
330
0
100
AcDbDictionary
281
     1
  3
ACAD_GROUP
350
D
  3
ACAD_LAYOUT
350
1A
  3
ACAD_MLINESTYLE
350
17
  3
ACAD_PLOTSETTINGS
350
19
  3
ACAD_PLOTSTYLENAME
350
E
  3
ACAD_SCALELIST
350
47
  3
DWGPROPS
350
B6
  0
DICTIONARY
  5
D
102
{ACAD_REACTORS
330
C
102
}
330
C
100
AcDbDictionary
281
     1
  0
DICTIONARY
  5
1A
102
{ACAD_REACTORS
330
C
102
}
330
C
100
AcDbDictionary
281
     1
  3
Layout1
350
1E
  3
Layout2
350
26
  3
Model
350
22
  0
DICTIONARY
  5
17
102
{ACAD_REACTORS
330
C
102
}
330
C
100
AcDbDictionary
281
     1
  3
Standard
350
18
  0
DICTIONARY
  5
19
102
{ACAD_REACTORS
330
C
102
}
330
C
100
AcDbDictionary
281
     1
  0
ACDBDICTIONARYWDFLT
  5
E
102
{ACAD_REACTORS
330
C
102
}
330
C
100
AcDbDictionary
281
     1
  3
Normal
350
F
100
AcDbDictionaryWithDefault
340
F
  0
DICTIONARY
  5
47
102
{ACAD_REACTORS
330
C
102
}
330
C
100
AcDbDictionary
281
     1
  3
A0
350
48
  3
A1
350
49
  3
A2
350
4A
  3
A3
350
4B
  3
A4
350
4C
  3
A5
350
4D
  3
A6
350
4E
  3
A7
350
4F
  3
A8
350
50
  3
A9
350
51
  3
B0
350
52
  3
B1
350
53
  3
B2
350
54
  3
B3
350
55
  3
B4
350
56
  3
B5
350
57
  3
B6
350
58
  3
B7
350
59
  3
B8
350
5A
  3
B9
350
5B
  3
C0
350
5C
  3
C1
350
5D
  3
C2
350
5E
  3
C3
350
5F
  3
C4
350
60
  3
C5
350
61
  3
C6
350
62
  3
C7
350
63
  3
C8
350
64
  3
C9
350
65
  3
D0
350
66
  3
D1
350
67
  3
D2
350
68
  0
XRECORD
  5
B6
102
{ACAD_REACTORS
330
C
102
}
330
C
100
AcDbXrecord
280
     1
  1
DWGPROPS COOKIE
  2

  3

  4

  6

  7

  8
b.kav
  9

300
=
301
=
302
=
303
=
304
=
305
=
306
=
307
=
308
=
309
=
 40
0.0
 41
2460704.335293761
 42
2460704.335293935
  1

 90
        0
  0
LAYOUT
  5
1E
102
{ACAD_REACTORS
330
1A
102
}
330
1A
100
AcDbPlotSettings
  1

  2
none_device
  4

  6

 40
0.0
 41
0.0
 42
0.0
 43
0.0
 44
0.0
 45
0.0
 46
0.0
 47
0.0
 48
0.0
 49
0.0
140
0.0
141
0.0
142
1.0
143
1.0
 70
   688
 72
     1
 73
     0
 74
     5
  7

 75
    16
147
1.0
148
0.0
149
0.0
100
AcDbLayout
  1
Layout1
 70
     1
 71
     1
 10
0.0
 20
0.0
 11
420.0
 21
297.0
 12
0.0
 22
0.0
 32
0.0
 14
1.0000000000E+20
 24
1.0000000000E+20
 34
1.0000000000E+20
 15
-1.0000000000E+20
 25
-1.0000000000E+20
 35
-1.0000000000E+20
146
0.0
 13
0.0
 23
0.0
 33
0.0
 16
1.0
 26
0.0
 36
0.0
 17
0.0
 27
1.0
 37
0.0
 76
     0
330
1B
  0
LAYOUT
  5
26
102
{ACAD_REACTORS
330
1A
102
}
330
1A
100
AcDbPlotSettings
  1

  2
none_device
  4

  6

 40
0.0
 41
0.0
 42
0.0
 43
0.0
 44
0.0
 45
0.0
 46
0.0
 47
0.0
 48
0.0
 49
0.0
140
0.0
141
0.0
142
1.0
143
1.0
 70
   688
 72
     1
 73
     0
 74
     5
  7

 75
    16
147
1.0
148
0.0
149
0.0
100
AcDbLayout
  1
Layout2
 70
     1
 71
     2
 10
0.0
 20
0.0
 11
0.0
 21
0.0
 12
0.0
 22
0.0
 32
0.0
 14
0.0
 24
0.0
 34
0.0
 15
0.0
 25
0.0
 35
0.0
146
0.0
 13
0.0
 23
0.0
 33
0.0
 16
1.0
 26
0.0
 36
0.0
 17
0.0
 27
1.0
 37
0.0
 76
     0
330
23
  0
LAYOUT
  5
22
102
{ACAD_REACTORS
330
1A
102
}
330
1A
100
AcDbPlotSettings
  1

  2
none_device
  4
Letter_(8.50_x_11.00_Inches)
  6

 40
6.35
 41
6.35
 42
6.35000508
 43
6.35000508
 44
215.9
 45
279.4
 46
0.0
 47
0.0
 48
0.0
 49
0.0
140
0.0
141
0.0
142
1.0
143
1.0
 70
  1712
 72
     1
 73
     0
 74
     0
  7

 75
     0
147
1.0
148
0.0
149
0.0
100
AcDbLayout
  1
Model
 70
     1
 71
     0
 10
0.0
 20
0.0
 11
279.4
 21
215.9
 12
0.0
 22
0.0
 32
0.0
 14
0.0
 24
0.0
 34
0.0
 15
279.4
 25
215.9
 35
0.0
146
0.0
 13
0.0
 23
0.0
 33
0.0
 16
1.0
 26
0.0
 36
0.0
 17
0.0
 27
1.0
 37
0.0
 76
     0
330
1F
331
29
  0
MLINESTYLE
  5
18
102
{ACAD_REACTORS
330
17
102
}
330
17
100
AcDbMlineStyle
  2
Standard
 70
     0
  3

 62
   256
 51
90.0
 52
90.0
 71
     2
 49
0.5
 62
   256
  6
BYLAYER
 49
-0.5
 62
   256
  6
BYLAYER
  0
ACDBPLACEHOLDER
  5
F
102
{ACAD_REACTORS
330
E
102
}
330
E
  0
SCALE
  5
48
102
{ACAD_REACTORS
330
47
102
}
330
47
100
AcDbScale
 70
     0
300
1:1
140
1.0
141
1.0
290
     1
  0
SCALE
  5
49
102
{ACAD_REACTORS
330
47
102
}
330
47
100
AcDbScale
 70
     0
300
1:2
140
1.0
141
2.0
290
     0
  0
SCALE
  5
4A
102
{ACAD_REACTORS
330
47
102
}
330
47
100
AcDbScale
 70
     0
300
1:4
140
1.0
141
4.0
290
     0
  0
SCALE
  5
4B
102
{ACAD_REACTORS
330
47
102
}
330
47
100
AcDbScale
 70
     0
300
1:5
140
1.0
141
5.0
290
     0
  0
SCALE
  5
4C
102
{ACAD_REACTORS
330
47
102
}
330
47
100
AcDbScale
 70
     0
300
1:8
140
1.0
141
8.0
290
     0
  0
SCALE
  5
4D
102
{ACAD_REACTORS
330
47
102
}
330
47
100
AcDbScale
 70
     0
300
1:10
140
1.0
141
10.0
290
     0
  0
SCALE
  5
4E
102
{ACAD_REACTORS
330
47
102
}
330
47
100
AcDbScale
 70
     0
300
1:16
140
1.0
141
16.0
290
     0
  0
SCALE
  5
4F
102
{ACAD_REACTORS
330
47
102
}
330
47
100
AcDbScale
 70
     0
300
1:20
140
1.0
141
20.0
290
     0
  0
SCALE
  5
50
102
{ACAD_REACTORS
330
47
102
}
330
47
100
AcDbScale
 70
     0
300
1:30
140
1.0
141
30.0
290
     0
  0
SCALE
  5
51
102
{ACAD_REACTORS
330
47
102
}
330
47
100
AcDbScale
 70
     0
300
1:40
140
1.0
141
40.0
290
     0
  0
SCALE
  5
52
102
{ACAD_REACTORS
330
47
102
}
330
47
100
AcDbScale
 70
     0
300
1:50
140
1.0
141
50.0
290
     0
  0
SCALE
  5
53
102
{ACAD_REACTORS
330
47
102
}
330
47
100
AcDbScale
 70
     0
300
1:100
140
1.0
141
100.0
290
     0
  0
SCALE
  5
54
102
{ACAD_REACTORS
330
47
102
}
330
47
100
AcDbScale
 70
     0
300
2:1
140
2.0
141
1.0
290
     0
  0
SCALE
  5
55
102
{ACAD_REACTORS
330
47
102
}
330
47
100
AcDbScale
 70
     0
300
4:1
140
4.0
141
1.0
290
     0
  0
SCALE
  5
56
102
{ACAD_REACTORS
330
47
102
}
330
47
100
AcDbScale
 70
     0
300
8:1
140
8.0
141
1.0
290
     0
  0
SCALE
  5
57
102
{ACAD_REACTORS
330
47
102
}
330
47
100
AcDbScale
 70
     0
300
10:1
140
10.0
141
1.0
290
     0
  0
SCALE
  5
58
102
{ACAD_REACTORS
330
47
102
}
330
47
100
AcDbScale
 70
     0
300
100:1
140
100.0
141
1.0
290
     0
  0
SCALE
  5
59
102
{ACAD_REACTORS
330
47
102
}
330
47
100
AcDbScale
 70
     0
300
1/128" = 1'-0"
140
0.0078125
141
12.0
290
     0
  0
SCALE
  5
5A
102
{ACAD_REACTORS
330
47
102
}
330
47
100
AcDbScale
 70
     0
300
1/64" = 1'-0"
140
0.015625
141
12.0
290
     0
  0
SCALE
  5
5B
102
{ACAD_REACTORS
330
47
102
}
330
47
100
AcDbScale
 70
     0
300
1/32" = 1'-0"
140
0.03125
141
12.0
290
     0
  0
SCALE
  5
5C
102
{ACAD_REACTORS
330
47
102
}
330
47
100
AcDbScale
 70
     0
300
1/16" = 1'-0"
140
0.0625
141
12.0
290
     0
  0
SCALE
  5
5D
102
{ACAD_REACTORS
330
47
102
}
330
47
100
AcDbScale
 70
     0
300
3/32" = 1'-0"
140
0.09375
141
12.0
290
     0
  0
SCALE
  5
5E
102
{ACAD_REACTORS
330
47
102
}
330
47
100
AcDbScale
 70
     0
300
1/8" = 1'-0"
140
0.125
141
12.0
290
     0
  0
SCALE
  5
5F
102
{ACAD_REACTORS
330
47
102
}
330
47
100
AcDbScale
 70
     0
300
3/16" = 1'-0"
140
0.1875
141
12.0
290
     0
  0
SCALE
  5
60
102
{ACAD_REACTORS
330
47
102
}
330
47
100
AcDbScale
 70
     0
300
1/4" = 1'-0"
140
0.25
141
12.0
290
     0
  0
SCALE
  5
61
102
{ACAD_REACTORS
330
47
102
}
330
47
100
AcDbScale
 70
     0
300
3/8" = 1'-0"
140
0.375
141
12.0
290
     0
  0
SCALE
  5
62
102
{ACAD_REACTORS
330
47
102
}
330
47
100
AcDbScale
 70
     0
300
1/2" = 1'-0"
140
0.5
141
12.0
290
     0
  0
SCALE
  5
63
102
{ACAD_REACTORS
330
47
102
}
330
47
100
AcDbScale
 70
     0
300
3/4" = 1'-0"
140
0.75
141
12.0
290
     0
  0
SCALE
  5
64
102
{ACAD_REACTORS
330
47
102
}
330
47
100
AcDbScale
 70
     0
300
1" = 1'-0"
140
1.0
141
12.0
290
     0
  0
SCALE
  5
65
102
{ACAD_REACTORS
330
47
102
}
330
47
100
AcDbScale
 70
     0
300
1-1/2" = 1'-0"
140
1.5
141
12.0
290
     0
  0
SCALE
  5
66
102
{ACAD_REACTORS
330
47
102
}
330
47
100
AcDbScale
 70
     0
300
3" = 1'-0"
140
3.0
141
12.0
290
     0
  0
SCALE
  5
67
102
{ACAD_REACTORS
330
47
102
}
330
47
100
AcDbScale
 70
     0
300
6" = 1'-0"
140
6.0
141
12.0
290
     0
  0
SCALE
  5
68
102
{ACAD_REACTORS
330
47
102
}
330
47
100
AcDbScale
 70
     0
300
1'-0" = 1'-0"
140
12.0
141
12.0
290
     0
  0
ENDSEC
  0
EOF
